  0
SECTION
  2
HEADER
  9
$ACADVER
  1
AC1015
  9
$ACADMAINTVER
 70
     6
  9
$DWGCODEPAGE
  3
ANSI_1254
  9
$INSBASE
 10
0.0
 20
0.0
 30
0.0
  9
$EXTMIN
 10
0.0
 20
0.0
 30
0.0
  9
$EXTMAX
 10
279.4
 20
215.9
 30
0.0
  9
$LIMMIN
 10
0.0
 20
0.0
  9
$LIMMAX
 10
279.4
 20
215.9
  9
$ORTHOMODE
 70
     0
  9
$REGENMODE
 70
     1
  9
$FILLMODE
 70
     1
  9
$QTEXTMODE
 70
     0
  9
$MIRRTEXT
 70
     1
  9
$LTSCALE
 40
1.0
  9
$ATTMODE
 70
     1
  9
$TEXTSIZE
 40
3.5
  9
$TRACEWID
 40
1.0
  9
$TEXTSTYLE
  7
Standard
  9
$CLAYER
  8
0
  9
$CELTYPE
  6
ByLayer
  9
$CECOLOR
 62
   256
  9
$CELTSCALE
 40
1.0
  9
$DISPSILH
 70
     0
  9
$DIMSCALE
 40
1.0
  9
$DIMASZ
 40
3.5
  9
$DIMEXO
 40
1.0
  9
$DIMDLI
 40
3.75
  9
$DIMRND
 40
0.0
  9
$DIMDLE
 40
0.0
  9
$DIMEXE
 40
1.0
  9
$DIMTP
 40
0.0
  9
$DIMTM
 40
0.0
  9
$DIMTXT
 40
3.5
  9
$DIMCEN
 40
2.5
  9
$DIMTSZ
 40
0.0
  9
$DIMTOL
 70
     0
  9
$DIMLIM
 70
     0
  9
$DIMTIH
 70
     1
  9
$DIMTOH
 70
     1
  9
$DIMSE1
 70
     0
  9
$DIMSE2
 70
     0
  9
$DIMTAD
 70
     1
  9
$DIMZIN
 70
     0
  9
$DIMBLK
  1

  9
$DIMASO
 70
     1
  9
$DIMSHO
 70
     1
  9
$DIMPOST
  1

  9
$DIMAPOST
  1

  9
$DIMALT
 70
     0
  9
$DIMALTD
 70
     3
  9
$DIMALTF
 40
0.0393700787
  9
$DIMLFAC
 40
1.0
  9
$DIMTOFL
 70
     1
  9
$DIMTVP
 40
0.0
  9
$DIMTIX
 70
     0
  9
$DIMSOXD
 70
     0
  9
$DIMSAH
 70
     0
  9
$DIMBLK1
  1

  9
$DIMBLK2
  1

  9
$DIMSTYLE
  2
ISO-25
  9
$DIMCLRD
 70
     0
  9
$DIMCLRE
 70
     0
  9
$DIMCLRT
 70
     0
  9
$DIMTFAC
 40
1.0
  9
$DIMGAP
 40
1.524
  9
$DIMJUST
 70
     0
  9
$DIMSD1
 70
     0
  9
$DIMSD2
 70
     0
  9
$DIMTOLJ
 70
     0
  9
$DIMTZIN
 70
     0
  9
$DIMALTZ
 70
     0
  9
$DIMALTTZ
 70
     0
  9
$DIMUPT
 70
     0
  9
$DIMDEC
 70
     2
  9
$DIMTDEC
 70
     2
  9
$DIMALTU
 70
     2
  9
$DIMALTTD
 70
     3
  9
$DIMTXSTY
  7
Standard
  9
$DIMAUNIT
 70
     0
  9
$DIMADEC
 70
     2
  9
$DIMALTRND
 40
0.0
  9
$DIMAZIN
 70
     0
  9
$DIMDSEP
 70
    44
  9
$DIMATFIT
 70
     3
  9
$DIMFRAC
 70
     0
  9
$DIMLDRBLK
  1

  9
$DIMLUNIT
 70
     2
  9
$DIMLWD
 70
    -2
  9
$DIMLWE
 70
    -2
  9
$DIMTMOVE
 70
     0
  9
$LUNITS
 70
     2
  9
$LUPREC
 70
     2
  9
$SKETCHINC
 40
1.0
  9
$FILLETRAD
 40
10.0
  9
$AUNITS
 70
     0
  9
$AUPREC
 70
     2
  9
$MENU
  1
.
  9
$ELEVATION
 40
0.0
  9
$PELEVATION
 40
0.0
  9
$THICKNESS
 40
0.0
  9
$LIMCHECK
 70
     0
  9
$CHAMFERA
 40
0.0
  9
$CHAMFERB
 40
0.0
  9
$CHAMFERC
 40
0.0
  9
$CHAMFERD
 40
0.0
  9
$SKPOLY
 70
     0
  9
$TDCREATE
 40
2458985.632976967
  9
$TDUCREATE
 40
2458985.507976967
  9
$TDUPDATE
 40
2458985.63297721
  9
$TDUUPDATE
 40
2458985.50797721
  9
$TDINDWG
 40
0.0000000116
  9
$TDUSRTIMER
 40
0.0000000116
  9
$USRTIMER
 70
     1
  9
$ANGBASE
 50
0.0
  9
$ANGDIR
 70
     0
  9
$PDMODE
 70
     0
  9
$PDSIZE
 40
-1.0
  9
$PLINEWID
 40
0.0
  9
$SPLFRAME
 70
     0
  9
$SPLINETYPE
 70
     6
  9
$SPLINESEGS
 70
     8
  9
$HANDSEED
  5
CC
  9
$SURFTAB1
 70
     6
  9
$SURFTAB2
 70
     6
  9
$SURFTYPE
 70
     6
  9
$SURFU
 70
     6
  9
$SURFV
 70
     6
  9
$UCSBASE
  2

  9
$UCSNAME
  2

  9
$UCSORG
 10
0.0
 20
0.0
 30
0.0
  9
$UCSXDIR
 10
1.0
 20
0.0
 30
0.0
  9
$UCSYDIR
 10
0.0
 20
1.0
 30
0.0
  9
$UCSORTHOREF
  2

  9
$UCSORTHOVIEW
 70
     0
  9
$UCSORGTOP
 10
0.0
 20
0.0
 30
0.0
  9
$UCSORGBOTTOM
 10
0.0
 20
0.0
 30
0.0
  9
$UCSORGLEFT
 10
0.0
 20
0.0
 30
0.0
  9
$UCSORGRIGHT
 10
0.0
 20
0.0
 30
0.0
  9
$UCSORGFRONT
 10
0.0
 20
0.0
 30
0.0
  9
$UCSORGBACK
 10
0.0
 20
0.0
 30
0.0
  9
$PUCSBASE
  2

  9
$PUCSNAME
  2

  9
$PUCSORG
 10
0.0
 20
0.0
 30
0.0
  9
$PUCSXDIR
 10
1.0
 20
0.0
 30
0.0
  9
$PUCSYDIR
 10
0.0
 20
1.0
 30
0.0
  9
$PUCSORTHOREF
  2

  9
$PUCSORTHOVIEW
 70
     0
  9
$PUCSORGTOP
 10
0.0
 20
0.0
 30
0.0
  9
$PUCSORGBOTTOM
 10
0.0
 20
0.0
 30
0.0
  9
$PUCSORGLEFT
 10
0.0
 20
0.0
 30
0.0
  9
$PUCSORGRIGHT
 10
0.0
 20
0.0
 30
0.0
  9
$PUCSORGFRONT
 10
0.0
 20
0.0
 30
0.0
  9
$PUCSORGBACK
 10
0.0
 20
0.0
 30
0.0
  9
$USERI1
 70
     0
  9
$USERI2
 70
     0
  9
$USERI3
 70
     0
  9
$USERI4
 70
     0
  9
$USERI5
 70
     0
  9
$USERR1
 40
0.0
  9
$USERR2
 40
0.0
  9
$USERR3
 40
0.0
  9
$USERR4
 40
0.0
  9
$USERR5
 40
0.0
  9
$WORLDVIEW
 70
     1
  9
$SHADEDGE
 70
     3
  9
$SHADEDIF
 70
    70
  9
$TILEMODE
 70
     1
  9
$MAXACTVP
 70
    64
  9
$PINSBASE
 10
0.0
 20
0.0
 30
0.0
  9
$PLIMCHECK
 70
     0
  9
$PEXTMIN
 10
1.0000000000E+20
 20
1.0000000000E+20
 30
1.0000000000E+20
  9
$PEXTMAX
 10
-1.0000000000E+20
 20
-1.0000000000E+20
 30
-1.0000000000E+20
  9
$PLIMMIN
 10
0.0
 20
0.0
  9
$PLIMMAX
 10
420.0
 20
297.0
  9
$UNITMODE
 70
     0
  9
$VISRETAIN
 70
     1
  9
$PLINEGEN
 70
     0
  9
$PSLTSCALE
 70
     1
  9
$TREEDEPTH
 70
  3020
  9
$CMLSTYLE
  2
Standard
  9
$CMLJUST
 70
     0
  9
$CMLSCALE
 40
20.0
  9
$PROXYGRAPHICS
 70
     1
  9
$MEASUREMENT
 70
     1
  9
$CELWEIGHT
370
    -1
  9
$ENDCAPS
280
     0
  9
$JOINSTYLE
280
     0
  9
$LWDISPLAY
290
     1
  9
$INSUNITS
 70
     4
  9
$HYPERLINKBASE
  1

  9
$STYLESHEET
  1

  9
$XEDIT
290
     1
  9
$CEPSNTYPE
380
     0
  9
$PSTYLEMODE
290
     1
  9
$FINGERPRINTGUID
  2
{3fcd8de5-1928-4ed5-adfb-cd6d4cbbb98b}
  9
$VERSIONGUID
  2
{FAEB1C32-E019-11D5-929B-00C0DF256EC4}
  9
$EXTNAMES
290
     1
  9
$PSVPSCALE
 40
0.0
  9
$OLESTARTUP
290
     0
  0
ENDSEC
  0
SECTION
  2
CLASSES
  0
CLASS
  1
ACDBDICTIONARYWDFLT
  2
AcDbDictionaryWithDefault
  3
ObjectDBX Classes
 90
        0
280
     0
281
     0
  0
CLASS
  1
VISUALSTYLE
  2
AcDbVisualStyle
  3
ObjectDBX Classes
 90
     4095
280
     0
281
     0
  0
CLASS
  1
MATERIAL
  2
AcDbMaterial
  3
ObjectDBX Classes
 90
     1153
280
     0
281
     0
  0
CLASS
  1
SCALE
  2
AcDbScale
  3
ObjectDBX Classes
 90
     1153
280
     0
281
     0
  0
CLASS
  1
TABLESTYLE
  2
AcDbTableStyle
  3
ObjectDBX Classes
 90
     4095
280
     0
281
     0
  0
CLASS
  1
MLEADERSTYLE
  2
AcDbMLeaderStyle
  3
ACDB_MLEADERSTYLE_CLASS
 90
     4095
280
     0
281
     0
  0
CLASS
  1
SUN
  2
AcDbSun
  3
SCENEOE
 90
     1153
280
     0
281
     0
  0
CLASS
  1
ACDBPLACEHOLDER
  2
AcDbPlaceHolder
  3
ObjectDBX Classes
 90
        0
280
     0
281
     0
  0
CLASS
  1
LAYOUT
  2
AcDbLayout
  3
ObjectDBX Classes
 90
        0
280
     0
281
     0
  0
ENDSEC
  0
SECTION
  2
TABLES
  0
TABLE
  2
VPORT
  5
8
330
0
100
AcDbSymbolTable
 70
     1
  0
VPORT
  5
29
330
8
100
AcDbSymbolTableRecord
100
AcDbViewportTableRecord
  2
*Active
 70
     0
 10
0.0
 20
0.0
 11
1.0
 21
1.0
 12
139.7
 22
107.95
 13
0.0
 23
0.0
 14
10.0
 24
10.0
 15
10.0
 25
10.0
 16
0.0
 26
0.0
 36
1.0
 17
0.0
 27
0.0
 37
0.0
 40
215.9
 41
1.2941176471
 42
50.0
 43
0.0
 44
0.0
 50
0.0
 51
0.0
 71
     0
 72
  2000
 73
     1
 74
     3
 75
     0
 76
     0
 77
     0
 78
     0
281
     0
 65
     1
110
0.0
120
0.0
130
0.0
111
1.0
121
0.0
131
0.0
112
0.0
122
1.0
132
0.0
 79
     0
146
0.0
  0
ENDTAB
  0
TABLE
  2
LTYPE
  5
5
330
0
100
AcDbSymbolTable
 70
     6
  0
LTYPE
  5
14
330
5
100
AcDbSymbolTableRecord
100
AcDbLinetypeTableRecord
  2
ByBlock
 70
     0
  3

 72
    65
 73
     0
 40
0.0
  0
LTYPE
  5
15
330
5
100
AcDbSymbolTableRecord
100
AcDbLinetypeTableRecord
  2
ByLayer
 70
     0
  3

 72
    65
 73
     0
 40
0.0
  0
LTYPE
  5
16
330
5
100
AcDbSymbolTableRecord
100
AcDbLinetypeTableRecord
  2
Continuous
 70
     0
  3
Solid line
 72
    65
 73
     0
 40
0.0
  0
LTYPE
  5
6E
330
5
100
AcDbSymbolTableRecord
100
AcDbLinetypeTableRecord
  2
HIDDEN
 70
     0
  3
Hidden __ __ __ __ __ __ __ __ __ __ __ __ __ __
 72
    65
 73
     2
 40
1.905
 49
1.27
 74
     0
 49
-0.635
 74
     0
  0
LTYPE
  5
6F
330
5
100
AcDbSymbolTableRecord
100
AcDbLinetypeTableRecord
  2
PHANTOM
 70
     0
  3
Phantom ______  __  __  ______  __  __  ______
 72
    65
 73
     6
 40
12.7
 49
6.35
 74
     0
 49
-1.27
 74
     0
 49
1.27
 74
     0
 49
-1.27
 74
     0
 49
1.27
 74
     0
 49
-1.27
 74
     0
  0
LTYPE
  5
70
330
5
100
AcDbSymbolTableRecord
100
AcDbLinetypeTableRecord
  2
CENTER
 70
     0
  3
Center ____ _ ____ _ ____ _ ____ _ ____ _ ____
 72
    65
 73
     4
 40
10.16
 49
6.35
 74
     0
 49
-1.27
 74
     0
 49
1.27
 74
     0
 49
-1.27
 74
     0
  0
LTYPE
  5
71
330
5
100
AcDbSymbolTableRecord
100
AcDbLinetypeTableRecord
  2
CENTERX2
 70
     0
  3
Center (2x) ________  __  ________  __  _____
 72
    65
 73
     4
 40
20.32
 49
12.7
 74
     0
 49
-2.54
 74
     0
 49
2.54
 74
     0
 49
-2.54
 74
     0
  0
LTYPE
  5
72
330
5
100
AcDbSymbolTableRecord
100
AcDbLinetypeTableRecord
  2
DOT2
 70
     0
  3
Dot (.5x) ........................................
 72
    65
 73
     2
 40
0.635
 49
0.0
 74
     0
 49
-0.635
 74
     0
  0
ENDTAB
  0
TABLE
  2
LAYER
  5
2
330
0
100
AcDbSymbolTable
 70
    17
  0
LAYER
  5
10
330
2
100
AcDbSymbolTableRecord
100
AcDbLayerTableRecord
  2
0
 70
     0
 62
     7
  6
Continuous
370
    -3
390
F
  0
LAYER
  5
73
330
2
100
AcDbSymbolTableRecord
100
AcDbLayerTableRecord
  2
FORMAT
 70
     0
 62
     7
  6
Continuous
370
    -3
390
F
  0
LAYER
  5
74
330
2
100
AcDbSymbolTableRecord
100
AcDbLayerTableRecord
  2
YARDIMCI_GEOMETRI
 70
     0
 62
    -6
  6
Continuous
290
     0
370
    -3
390
F
  0
LAYER
  5
75
330
2
100
AcDbSymbolTableRecord
100
AcDbLayerTableRecord
  2
SAYFA_CERCEVESI
 70
     0
 62
     7
  6
Continuous
370
    25
390
F
  0
LAYER
  5
76
330
2
100
AcDbSymbolTableRecord
100
AcDbLayerTableRecord
  2
ANTET
 70
     0
 62
     7
  6
Continuous
370
    -3
390
F
  0
LAYER
  5
77
330
2
100
AcDbSymbolTableRecord
100
AcDbLayerTableRecord
  2
OLCU
 70
     0
 62
   150
  6
Continuous
370
    -3
390
F
  0
LAYER
  5
78
330
2
100
AcDbSymbolTableRecord
100
AcDbLayerTableRecord
  2
METIN
 70
     0
 62
    96
  6
Continuous
370
    -3
390
F
  0
LAYER
  5
79
330
2
100
AcDbSymbolTableRecord
100
AcDbLayerTableRecord
  2
BALON
 70
     0
 62
     5
  6
Continuous
370
    -3
390
F
  0
LAYER
  5
7A
330
2
100
AcDbSymbolTableRecord
100
AcDbLayerTableRecord
  2
VURGU
 70
     0
 62
     7
  6
Continuous
370
    -3
390
F
  0
LAYER
  5
7B
330
2
100
AcDbSymbolTableRecord
100
AcDbLayerTableRecord
  2
SILIK
 70
     0
 62
     7
  6
Continuous
370
    -3
390
F
  0
LAYER
  5
7C
330
2
100
AcDbSymbolTableRecord
100
AcDbLayerTableRecord
  2
MODEL
 70
     0
 62
     7
  6
Continuous
370
    -3
390
F
  0
LAYER
  5
7D
330
2
100
AcDbSymbolTableRecord
100
AcDbLayerTableRecord
  2
DETAYLANDıRMA
 70
     0
 62
   190
  6
Continuous
370
    -3
390
F
  0
LAYER
  5
7E
330
2
100
AcDbSymbolTableRecord
100
AcDbLayerTableRecord
  2
TOLERANS
 70
     0
 62
   230
  6
Continuous
370
    -3
390
F
  0
LAYER
  5
7F
330
2
100
AcDbSymbolTableRecord
100
AcDbLayerTableRecord
  2
MERKEZ_CIZGILERI
 70
     0
 62
    30
  6
Continuous
370
    -3
390
F
  0
LAYER
  5
80
330
2
100
AcDbSymbolTableRecord
100
AcDbLayerTableRecord
  2
KESIT-DETAY_CIZGILERI
 70
     0
 62
     7
  6
Continuous
370
    -3
390
F
  0
LAYER
  5
81
330
2
100
AcDbSymbolTableRecord
100
AcDbLayerTableRecord
  2
\U+041E\U+0421\U+0415\U+0412\U+042B\U+0415
 70
     0
 62
     7
  6
Continuous
370
    -3
390
F
  0
LAYER
  5
82
330
2
100
AcDbSymbolTableRecord
100
AcDbLayerTableRecord
  2
\U+0412\U+041E\U+0414\U+042F\U+041D\U+042B\U+0415_\U+0417\U+041D\U+0410\U+041A\U+0418
 70
     0
 62
    11
  6
Continuous
370
    -3
390
F
  0
ENDTAB
  0
TABLE
  2
STYLE
  5
3
330
0
100
AcDbSymbolTable
 70
     1
  0
STYLE
  5
11
330
3
100
AcDbSymbolTableRecord
100
AcDbTextStyleTableRecord
  2
Standard
 70
     0
 40
0.0
 41
1.0
 50
0.0
 71
     0
 42
3.5
  3
txt
  4

  0
ENDTAB
  0
TABLE
  2
VIEW
  5
6
330
0
100
AcDbSymbolTable
 70
     0
  0
ENDTAB
  0
TABLE
  2
UCS
  5
7
330
0
100
AcDbSymbolTable
 70
     0
  0
ENDTAB
  0
TABLE
  2
APPID
  5
9
330
0
100
AcDbSymbolTable
 70
     1
  0
APPID
  5
12
330
9
100
AcDbSymbolTableRecord
100
AcDbRegAppTableRecord
  2
ACAD
 70
     0
  0
ENDTAB
  0
TABLE
  2
DIMSTYLE
  5
A
330
0
100
AcDbSymbolTable
 70
     1
100
AcDbDimStyleTable
  0
DIMSTYLE
105
27
330
A
100
AcDbSymbolTableRecord
100
AcDbDimStyleTableRecord
  2
ISO-25
 70
     0
 41
2.5
 42
0.625
 43
3.75
 44
1.25
 73
     0
 74
     0
 77
     1
 78
     8
140
2.5
141
2.5
143
0.0393700787
147
0.625
171
     3
172
     1
178
     0
271
     2
272
     2
274
     3
278
    44
283
     0
284
     8
340
11
  0
ENDTAB
  0
TABLE
  2
BLOCK_RECORD
  5
1
330
0
100
AcDbSymbolTable
 70
     2
  0
BLOCK_RECORD
  5
1F
330
1
100
AcDbSymbolTableRecord
100
AcDbBlockTableRecord
  2
*Model_Space
340
22
  0
BLOCK_RECORD
  5
1B
330
1
100
AcDbSymbolTableRecord
100
AcDbBlockTableRecord
  2
*Paper_Space
340
1E
  0
BLOCK_RECORD
  5
23
330
1
100
AcDbSymbolTableRecord
100
AcDbBlockTableRecord
  2
*Paper_Space0
340
26
  0
BLOCK_RECORD
  5
87
330
1
100
AcDbSymbolTableRecord
100
AcDbBlockTableRecord
  2
SW_CENTERMARKSYMBOL_0
340
0
102
{BLKREFS
331
92
102
}
  0
ENDTAB
  0
ENDSEC
  0
SECTION
  2
BLOCKS
  0
BLOCK
  5
20
330
1F
100
AcDbEntity
  8
0
100
AcDbBlockBegin
  2
*Model_Space
 70
     0
 10
0.0
 20
0.0
 30
0.0
  3
*Model_Space
  1

  0
ENDBLK
  5
21
330
1F
100
AcDbEntity
  8
0
100
AcDbBlockEnd
  0
BLOCK
  5
1C
330
1B
100
AcDbEntity
 67
     1
  8
0
100
AcDbBlockBegin
  2
*Paper_Space
 70
     0
 10
0.0
 20
0.0
 30
0.0
  3
*Paper_Space
  1

  0
ENDBLK
  5
1D
330
1B
100
AcDbEntity
 67
     1
  8
0
100
AcDbBlockEnd
  0
BLOCK
  5
24
330
23
100
AcDbEntity
  8
0
100
AcDbBlockBegin
  2
*Paper_Space0
 70
     0
 10
0.0
 20
0.0
 30
0.0
  3
*Paper_Space0
  1

  0
ENDBLK
  5
25
330
23
100
AcDbEntity
  8
0
100
AcDbBlockEnd
  0
BLOCK
  5
88
330
87
100
AcDbEntity
  8
0
100
AcDbBlockBegin
  2
SW_CENTERMARKSYMBOL_0
 70
     0
 10
0.0
 20
0.0
 30
0.0
  3
SW_CENTERMARKSYMBOL_0
  1

  0
LINE
  5
8A
330
87
100
AcDbEntity
  8
FORMAT
 62
     0
100
AcDbLine
 10
0.0
 20
0.0
 30
0.0
 11
0.0
 21
2.5
 31
0.0
  0
LINE
  5
8B
330
87
100
AcDbEntity
  8
FORMAT
 62
     0
100
AcDbLine
 10
0.0
 20
0.0
 30
0.0
 11
-2.5
 21
0.0
 31
0.0
  0
LINE
  5
8C
330
87
100
AcDbEntity
  8
FORMAT
 62
     0
100
AcDbLine
 10
0.0
 20
0.0
 30
0.0
 11
0.0
 21
-2.5
 31
0.0
  0
LINE
  5
8D
330
87
100
AcDbEntity
  8
FORMAT
 62
     0
100
AcDbLine
 10
0.0
 20
0.0
 30
0.0
 11
2.5
 21
0.0
 31
0.0
  0
LINE
  5
8E
330
87
100
AcDbEntity
  8
FORMAT
 62
     0
100
AcDbLine
 10
0.0
 20
5.0
 30
0.0
 11
0.0
 21
53.5
 31
0.0
  0
LINE
  5
8F
330
87
100
AcDbEntity
  8
FORMAT
 62
     0
100
AcDbLine
 10
-5.0
 20
0.0
 30
0.0
 11
-53.5
 21
0.0
 31
0.0
  0
LINE
  5
90
330
87
100
AcDbEntity
  8
FORMAT
 62
     0
100
AcDbLine
 10
0.0
 20
-5.0
 30
0.0
 11
0.0
 21
-53.5
 31
0.0
  0
LINE
  5
91
330
87
100
AcDbEntity
  8
FORMAT
 62
     0
100
AcDbLine
 10
5.0
 20
0.0
 30
0.0
 11
53.5
 21
0.0
 31
0.0
  0
ENDBLK
  5
89
330
87
100
AcDbEntity
  8
0
100
AcDbBlockEnd
  0
ENDSEC
  0
SECTION
  2
ENTITIES
  0
CIRCLE
  5
83
330
1F
100
AcDbEntity
  8
0
  6
Continuous
 62
     7
370
    25
100
AcDbCircle
 10
145.9547134838
 20
104.8588032679
 30
0.0
 40
31.49999999999999
  0
CIRCLE
  5
84
330
1F
100
AcDbEntity
  8
0
  6
Continuous
 62
     7
370
    25
100
AcDbCircle
 10
145.9547134838
 20
104.8588032679
 30
0.0
 40
25.69999999999999
  0
CIRCLE
  5
85
330
1F
100
AcDbEntity
  8
0
  6
Continuous
 62
     7
370
    25
100
AcDbCircle
 10
145.9547134838
 20
104.8588032679
 30
0.0
 40
39.0
  0
CIRCLE
  5
86
330
1F
100
AcDbEntity
  8
0
  6
Continuous
 62
     7
370
    25
100
AcDbCircle
 10
145.9547134838
 20
104.8588032679
 30
0.0
 40
50.99999999999999
  0
INSERT
  5
92
330
1F
100
AcDbEntity
  8
FORMAT
 62
     7
100
AcDbBlockReference
  2
SW_CENTERMARKSYMBOL_0
 10
145.9547134838
 20
104.8588032679
 30
0.0
  0
LINE
  5
93
330
1F
100
AcDbEntity
  8
0
  6
Continuous
 62
     7
370
    25
100
AcDbLine
 10
196.9547134838
 20
184.9066927271
 30
0.0
 11
196.9547134838
 21
198.9066927271
 31
0.0
  0
LINE
  5
94
330
1F
100
AcDbEntity
  8
0
  6
Continuous
 62
     7
370
    25
100
AcDbLine
 10
94.9547134838
 20
198.9066927271
 30
0.0
 11
94.9547134838
 21
184.9066927271
 31
0.0
  0
LINE
  5
95
330
1F
100
AcDbEntity
  8
0
  6
Continuous
 62
     7
370
    25
100
AcDbLine
 10
184.9547134838
 20
198.9066927271
 30
0.0
 11
177.4547134838
 21
216.9066927271
 31
0.0
  0
LINE
  5
96
330
1F
100
AcDbEntity
  8
0
  6
Continuous
 62
     7
370
    25
100
AcDbLine
 10
114.4547134838
 20
216.9066927271
 30
0.0
 11
106.9547134838
 21
198.9066927271
 31
0.0
  0
LINE
  5
97
330
1F
100
AcDbEntity
  8
0
  6
Continuous
 62
     7
370
    25
100
AcDbLine
 10
177.4547134838
 20
216.9066927271
 30
0.0
 11
177.4547134838
 21
304.9066927271
 31
0.0
  0
LINE
  5
98
330
1F
100
AcDbEntity
  8
0
  6
Continuous
 62
     7
370
    25
100
AcDbLine
 10
114.4547134838
 20
304.9066927271
 30
0.0
 11
114.4547134838
 21
216.9066927271
 31
0.0
  0
LINE
  5
99
330
1F
100
AcDbEntity
  8
0
  6
Continuous
 62
     7
370
    25
100
AcDbLine
 10
196.9547134838
 20
184.9066927271
 30
0.0
 11
94.9547134838
 21
184.9066927271
 31
0.0
  0
LINE
  5
9A
330
1F
100
AcDbEntity
  8
0
  6
Continuous
 62
     7
370
    25
100
AcDbLine
 10
196.9547134838
 20
198.9066927271
 30
0.0
 11
94.9547134838
 21
198.9066927271
 31
0.0
  0
LINE
  5
9B
330
1F
100
AcDbEntity
  8
0
  6
Continuous
 62
     7
370
    25
100
AcDbLine
 10
177.4547134838
 20
216.9066927271
 30
0.0
 11
114.4547134838
 21
216.9066927271
 31
0.0
  0
LINE
  5
9C
330
1F
100
AcDbEntity
  8
0
  6
Continuous
 62
     7
370
    25
100
AcDbLine
 10
177.4547134838
 20
304.9066927271
 30
0.0
 11
114.4547134838
 21
304.9066927271
 31
0.0
  0
LINE
  5
9D
330
1F
100
AcDbEntity
  8
0
  6
Continuous
 62
     7
370
    25
100
AcDbLine
 10
55.4143201242
 20
155.8588032679
 30
0.0
 11
41.4143201242
 21
155.8588032679
 31
0.0
  0
LINE
  5
9E
330
1F
100
AcDbEntity
  8
0
  6
Continuous
 62
     7
370
    25
100
AcDbLine
 10
41.4143201242
 20
53.8588032679
 30
0.0
 11
55.4143201242
 21
53.8588032679
 31
0.0
  0
LINE
  5
9F
330
1F
100
AcDbEntity
  8
0
  6
Continuous
 62
     7
370
    25
100
AcDbLine
 10
41.4143201242
 20
143.8588032679
 30
0.0
 11
23.4143201242
 21
136.3588032679
 31
0.0
  0
LINE
  5
A0
330
1F
100
AcDbEntity
  8
0
  6
Continuous
 62
     7
370
    25
100
AcDbLine
 10
23.4143201242
 20
73.3588032679
 30
0.0
 11
41.4143201242
 21
65.8588032679
 31
0.0
  0
LINE
  5
A1
330
1F
100
AcDbEntity
  8
0
  6
Continuous
 62
     7
370
    25
100
AcDbLine
 10
23.4143201242
 20
136.3588032679
 30
0.0
 11
-64.5856798758
 21
136.3588032679
 31
0.0
  0
LINE
  5
A2
330
1F
100
AcDbEntity
  8
0
  6
Continuous
 62
     7
370
    25
100
AcDbLine
 10
-64.5856798758
 20
73.3588032679
 30
0.0
 11
23.4143201242
 21
73.3588032679
 31
0.0
  0
LINE
  5
A3
330
1F
100
AcDbEntity
  8
0
  6
Continuous
 62
     7
370
    25
100
AcDbLine
 10
55.4143201242
 20
155.8588032679
 30
0.0
 11
55.4143201242
 21
53.8588032679
 31
0.0
  0
LINE
  5
A4
330
1F
100
AcDbEntity
  8
0
  6
Continuous
 62
     7
370
    25
100
AcDbLine
 10
41.4143201242
 20
155.8588032679
 30
0.0
 11
41.4143201242
 21
53.8588032679
 31
0.0
  0
LINE
  5
A5
330
1F
100
AcDbEntity
  8
0
  6
Continuous
 62
     7
370
    25
100
AcDbLine
 10
23.4143201242
 20
136.3588032679
 30
0.0
 11
23.4143201242
 21
73.3588032679
 31
0.0
  0
LINE
  5
A6
330
1F
100
AcDbEntity
  8
0
  6
Continuous
 62
     7
370
    25
100
AcDbLine
 10
-64.5856798758
 20
136.3588032679
 30
0.0
 11
-64.5856798758
 21
73.3588032679
 31
0.0
  0
LINE
  5
A7
330
1F
100
AcDbEntity
  8
0
  6
Continuous
 62
     7
370
    25
100
AcDbLine
 10
232.4754421594
 20
53.8588032679
 30
0.0
 11
246.4754421594
 21
53.8588032679
 31
0.0
  0
LINE
  5
A8
330
1F
100
AcDbEntity
  8
0
  6
Continuous
 62
     7
370
    25
100
AcDbLine
 10
246.4754421594
 20
155.8588032679
 30
0.0
 11
232.4754421594
 21
155.8588032679
 31
0.0
  0
LINE
  5
A9
330
1F
100
AcDbEntity
  8
0
  6
Continuous
 62
     7
370
    25
100
AcDbLine
 10
246.4754421594
 20
65.8588032679
 30
0.0
 11
264.4754421594
 21
73.3588032679
 31
0.0
  0
LINE
  5
AA
330
1F
100
AcDbEntity
  8
0
  6
Continuous
 62
     7
370
    25
100
AcDbLine
 10
264.4754421594
 20
136.3588032679
 30
0.0
 11
246.4754421594
 21
143.8588032679
 31
0.0
  0
LINE
  5
AB
330
1F
100
AcDbEntity
  8
0
  6
Continuous
 62
     7
370
    25
100
AcDbLine
 10
264.4754421594
 20
73.3588032679
 30
0.0
 11
352.4754421594
 21
73.3588032679
 31
0.0
  0
LINE
  5
AC
330
1F
100
AcDbEntity
  8
0
  6
Continuous
 62
     7
370
    25
100
AcDbLine
 10
352.4754421594
 20
136.3588032679
 30
0.0
 11
264.4754421594
 21
136.3588032679
 31
0.0
  0
LINE
  5
AD
330
1F
100
AcDbEntity
  8
0
  6
Continuous
 62
     7
370
    25
100
AcDbLine
 10
232.4754421594
 20
104.8588032679
 30
0.0
 11
232.4754421594
 21
155.8588032679
 31
0.0
  0
LINE
  5
AE
330
1F
100
AcDbEntity
  8
0
  6
Continuous
 62
     7
370
    25
100
AcDbLine
 10
232.4754421594
 20
53.8588032679
 30
0.0
 11
232.4754421594
 21
104.8588032679
 31
0.0
  0
LINE
  5
AF
330
1F
100
AcDbEntity
  8
0
  6
Continuous
 62
     7
370
    25
100
AcDbLine
 10
246.4754421594
 20
104.8588032679
 30
0.0
 11
246.4754421594
 21
155.8588032679
 31
0.0
  0
LINE
  5
B0
330
1F
100
AcDbEntity
  8
0
  6
Continuous
 62
     7
370
    25
100
AcDbLine
 10
246.4754421594
 20
53.8588032679
 30
0.0
 11
246.4754421594
 21
104.8588032679
 31
0.0
  0
LINE
  5
B1
330
1F
100
AcDbEntity
  8
0
  6
Continuous
 62
     7
370
    25
100
AcDbLine
 10
264.4754421594
 20
104.8588032679
 30
0.0
 11
264.4754421594
 21
136.3588032679
 31
0.0
  0
LINE
  5
B2
330
1F
100
AcDbEntity
  8
0
  6
Continuous
 62
     7
370
    25
100
AcDbLine
 10
264.4754421594
 20
73.3588032679
 30
0.0
 11
264.4754421594
 21
104.8588032679
 31
0.0
  0
LINE
  5
B3
330
1F
100
AcDbEntity
  8
0
  6
Continuous
 62
     7
370
    25
100
AcDbLine
 10
352.4754421594
 20
104.8588032679
 30
0.0
 11
352.4754421594
 21
136.3588032679
 31
0.0
  0
LINE
  5
B4
330
1F
100
AcDbEntity
  8
0
  6
Continuous
 62
     7
370
    25
100
AcDbLine
 10
352.4754421594
 20
73.3588032679
 30
0.0
 11
352.4754421594
 21
104.8588032679
 31
0.0
  0
LINE
  5
B5
330
1F
100
AcDbEntity
  8
0
  6
Continuous
 62
     7
370
    25
100
AcDbLine
 10
94.9547134838
 20
18.1693024869
 30
0.0
 11
94.9547134838
 21
4.1693024869
 31
0.0
  0
LINE
  5
B6
330
1F
100
AcDbEntity
  8
0
  6
Continuous
 62
     7
370
    25
100
AcDbLine
 10
196.9547134838
 20
4.1693024869
 30
0.0
 11
196.9547134838
 21
18.1693024869
 31
0.0
  0
LINE
  5
B7
330
1F
100
AcDbEntity
  8
0
  6
Continuous
 62
     7
370
    25
100
AcDbLine
 10
106.9547134838
 20
4.1693024869
 30
0.0
 11
114.4547134838
 21
-13.8306975131
 31
0.0
  0
LINE
  5
B8
330
1F
100
AcDbEntity
  8
0
  6
Continuous
 62
     7
370
    25
100
AcDbLine
 10
177.4547134838
 20
-13.8306975131
 30
0.0
 11
184.9547134838
 21
4.1693024869
 31
0.0
  0
LINE
  5
B9
330
1F
100
AcDbEntity
  8
0
  6
Continuous
 62
     7
370
    25
100
AcDbLine
 10
114.4547134838
 20
-13.8306975131
 30
0.0
 11
114.4547134838
 21
-101.8306975131
 31
0.0
  0
LINE
  5
BA
330
1F
100
AcDbEntity
  8
0
  6
Continuous
 62
     7
370
    25
100
AcDbLine
 10
177.4547134838
 20
-101.8306975131
 30
0.0
 11
177.4547134838
 21
-13.8306975131
 31
0.0
  0
LINE
  5
BB
330
1F
100
AcDbEntity
  8
0
  6
Continuous
 62
     7
370
    25
100
AcDbLine
 10
94.9547134838
 20
18.1693024869
 30
0.0
 11
196.9547134838
 21
18.1693024869
 31
0.0
  0
LINE
  5
BC
330
1F
100
AcDbEntity
  8
0
  6
Continuous
 62
     7
370
    25
100
AcDbLine
 10
94.9547134838
 20
4.1693024869
 30
0.0
 11
196.9547134838
 21
4.1693024869
 31
0.0
  0
LINE
  5
BD
330
1F
100
AcDbEntity
  8
0
  6
Continuous
 62
     7
370
    25
100
AcDbLine
 10
114.4547134838
 20
-13.8306975131
 30
0.0
 11
177.4547134838
 21
-13.8306975131
 31
0.0
  0
LINE
  5
BE
330
1F
100
AcDbEntity
  8
0
  6
Continuous
 62
     7
370
    25
100
AcDbLine
 10
114.4547134838
 20
-101.8306975131
 30
0.0
 11
177.4547134838
 21
-101.8306975131
 31
0.0
  0
LINE
  5
BF
330
1F
100
AcDbEntity
  8
0
  6
Continuous
 62
     7
370
    25
100
AcDbLine
 10
282.5870791258
 20
-0.460317967
 30
0.0
 11
241.5178848999
 21
-40.5451105658
 31
0.0
  0
LINE
  5
C0
330
1F
100
AcDbEntity
  8
0
  6
Continuous
 62
     7
370
    25
100
AcDbLine
 10
285.5220088949
 20
-85.6298870589
 30
0.0
 11
326.5912031208
 21
-45.5450944601
 31
0.0
  0
LINE
  5
C1
330
1F
100
AcDbEntity
  8
0
  6
Continuous
 62
     7
370
    25
100
AcDbLine
 10
278.9095181335
 20
-0.3887772892
 30
0.0
 11
278.1721873496
 21
-4.7693876853
 31
0.0
  0
LINE
  5
C2
330
1F
100
AcDbEntity
  8
0
  6
Continuous
 62
     7
370
    25
100
AcDbLine
 10
322.1763113446
 20
-49.8541641784
 30
0.0
 11
326.5735179033
 21
-49.2233087216
 31
0.0
  0
LINE
  5
C3
330
1F
100
AcDbEntity
  8
0
  6
Continuous
 62
     7
370
    25
100
AcDbLine
 10
283.9010074779
 20
28.0707820224
 30
0.0
 11
277.3672720328
 21
21.6936559272
 31
0.0
  0
LINE
  5
C4
330
1F
100
AcDbEntity
  8
0
  6
Continuous
 62
     7
370
    25
100
AcDbLine
 10
348.6120442152
 20
-51.3007441093
 30
0.0
 11
355.1457796602
 21
-44.923618014
 31
0.0
  0
LWPOLYLINE
  5
C5
330
1F
100
AcDbEntity
  8
0
  6
Continuous
 62
     7
370
    25
100
AcDbPolyline
 90
       99
 70
   128
 43
0.0
 10
235.6607760646
 20
-55.5159731298
 10
235.718015719
 20
-53.8015843696
 10
235.889499472
 20
-52.1253534236
 10
236.1745226603
 20
-50.4941682845
 10
236.5719140623
 20
-48.9147318417
 10
237.0800407116
 20
-47.3935343385
 10
237.6968146067
 20
-45.9368267016
 10
238.4197012915
 20
-44.5505948553
 10
239.2457302694
 20
-43.2405351234
 10
240.1715072103
 20
-42.0120308225
 10
241.193227898
 20
-40.8701301403
 10
242.3066938633
 20
-39.8195253915
 10
243.5073296354
 20
-38.8645337365
 10
244.7902015446
 20
-38.0090794408
 10
246.1500379949
 20
-37.2566777496
 10
247.5812511268
 20
-36.6104204429
 10
249.0779597784
 20
-36.0729631305
 10
250.6340136529
 20
-35.6465143398
 10
252.2430185911
 20
-35.3328264403
 10
253.8983628466
 20
-35.133188443
 10
255.5932442548
 20
-35.0484207032
 10
257.3206981845
 20
-35.0788715497
 10
259.0736261568
 20
-35.2244158535
 10
260.8448250148
 20
-35.4844555417
 10
262.6270165224
 20
-35.8579220556
 10
264.4128772725
 20
-36.3432807411
 10
266.1950687801
 20
-36.9385371553
 10
267.9662676381
 20
-37.6412452618
 10
269.7191956104
 20
-38.4485174824
 10
271.44664954
 20
-39.3570365624
 10
273.1415309482
 20
-40.3630692018
 10
274.7968752038
 20
-41.462481397
 10
276.405880142
 20
-42.6507554272
 10
277.9619340165
 20
-43.9230084197
 10
279.4586426681
 20
-45.2740124139
 10
280.8898557999
 20
-46.6982158448
 10
282.2496922503
 20
-48.1897663549
 10
283.5325641595
 20
-49.7425348431
 10
284.7331999316
 20
-51.3501406509
 10
285.8466658968
 20
-53.0059777809
 10
286.8683865846
 20
-54.7032420434
 10
287.7941635255
 20
-56.4349590153
 10
288.6201925034
 20
-58.1940127002
 10
289.3430791882
 20
-59.9731747693
 10
289.9598530833
 20
-61.7651342638
 10
290.4679797326
 20
-63.5625276379
 10
290.8653711346
 20
-65.3579690166
 10
291.1503943228
 20
-67.1440805463
 10
291.3218780759
 20
-68.9135227115
 10
291.3791177303
 20
-70.6590244948
 10
291.3218780759
 20
-72.3734132551
 10
291.1503943228
 20
-74.049644201
 10
290.8653711346
 20
-75.6808293401
 10
290.4679797326
 20
-77.2602657829
 10
289.9598530833
 20
-78.7814632861
 10
289.3430791882
 20
-80.238170923
 10
288.6201925034
 20
-81.6244027694
 10
287.7941635255
 20
-82.9344625012
 10
286.8683865846
 20
-84.1629668021
 10
285.8466658968
 20
-85.3048674843
 10
284.7331999316
 20
-86.3554722331
 10
283.5325641595
 20
-87.3104638881
 10
282.2496922503
 20
-88.1659181838
 10
280.8898557999
 20
-88.918319875
 10
279.4586426681
 20
-89.5645771817
 10
277.9619340165
 20
-90.1020344941
 10
276.405880142
 20
-90.5284832848
 10
274.7968752038
 20
-90.8421711843
 10
273.1415309482
 20
-91.0418091816
 10
271.44664954
 20
-91.1265769214
 10
269.7191956104
 20
-91.0961260749
 10
267.9662676381
 20
-90.9505817711
 10
266.1950687801
 20
-90.6905420829
 10
264.4128772725
 20
-90.317075569
 10
262.6270165224
 20
-89.8317168835
 10
260.8448250148
 20
-89.2364604693
 10
259.0736261568
 20
-88.5337523628
 10
257.3206981845
 20
-87.7264801422
 10
255.5932442548
 20
-86.8179610622
 10
253.8983628466
 20
-85.8119284228
 10
252.2430185911
 20
-84.7125162276
 10
250.6340136529
 20
-83.5242421974
 10
249.0779597784
 20
-82.2519892049
 10
247.5812511268
 20
-80.9009852107
 10
246.1500379949
 20
-79.4767817798
 10
244.7902015446
 20
-77.9852312697
 10
243.5073296354
 20
-76.4324627815
 10
242.3066938633
 20
-74.8248569737
 10
241.193227898
 20
-73.1690198437
 10
240.1715072103
 20
-71.4717555812
 10
239.2457302694
 20
-69.7400386093
 10
238.4197012915
 20
-67.9809849244
 10
237.6968146067
 20
-66.2018228554
 10
237.0800407116
 20
-64.4098633608
 10
236.5719140623
 20
-62.6124699867
 10
236.1745226603
 20
-60.817028608
 10
235.889499472
 20
-59.0309170783
 10
235.718015719
 20
-57.2614749131
 10
235.6607760646
 20
-55.5159731298
  0
LWPOLYLINE
  5
C6
330
1F
100
AcDbEntity
  8
0
  6
Continuous
 62
     7
370
    25
100
AcDbPolyline
 90
       89
 70
   128
 43
0.0
 10
240.7904011703
 20
-56.9100953189
 10
240.8483134478
 20
-55.354289527
 10
241.0217551725
 20
-53.8378903971
 10
241.3098425252
 20
-52.3686251514
 10
241.7111074788
 20
-50.9539808288
 10
242.223505279
 20
-49.6011661327
 10
242.8444248642
 20
-48.3170746966
 10
243.5707021703
 20
-47.1082499561
 10
244.3986362549
 20
-45.980851805
 10
245.3240081554
 20
-44.9406252058
 10
246.3421023889
 20
-43.9928709149
 10
247.4477309805
 20
-43.1424184709
 10
248.6352599003
 20
-42.3936015845
 10
249.8986377732
 20
-41.7502360549
 10
251.2314267151
 20
-41.2156003254
 10
252.6268351391
 20
-40.792418777
 10
254.0777523637
 20
-40.4828478461
 10
255.5767848472
 20
-40.288465035
 10
257.1162938639
 20
-40.210260874
 10
258.6884344285
 20
-40.2486338737
 10
260.2851952733
 20
-40.4033884939
 10
261.8984396708
 20
-40.6737361406
 10
263.5199468974
 20
-41.0582991843
 10
265.1414541241
 20
-41.5551179796
 10
266.7546985216
 20
-42.1616608521
 10
268.3514593663
 20
-42.8748369982
 10
269.923599931
 20
-43.6910122357
 10
271.4631089476
 20
-44.6060275227
 10
272.9621414312
 20
-45.6152201511
 10
274.4130586558
 20
-46.7134475065
 10
275.8084670797
 20
-47.8951132742
 10
277.1412560216
 20
-49.1541959561
 10
278.4046338945
 20
-50.4842795556
 10
279.5921628144
 20
-51.8785862715
 10
280.697791406
 20
-53.3300110364
 10
281.7158856395
 20
-54.8311577224
 10
282.64125754
 20
-56.37437683
 10
283.4691916245
 20
-57.9518044685
 10
284.1954689307
 20
-59.5554024282
 10
284.8163885158
 20
-61.1769991414
 10
285.328786316
 20
-62.808331323
 10
285.7300512696
 20
-64.4410860781
 10
286.0181386223
 20
-66.0669432628
 10
286.1915803471
 20
-67.6776178816
 10
286.2494926245
 20
-69.2649023057
 10
286.1915803471
 20
-70.8207080976
 10
286.0181386223
 20
-72.3371072276
 10
285.7300512696
 20
-73.8063724733
 10
285.328786316
 20
-75.2210167958
 10
284.8163885158
 20
-76.5738314919
 10
284.1954689307
 20
-77.857922928
 10
283.4691916245
 20
-79.0667476685
 10
282.64125754
 20
-80.1941458196
 10
281.7158856395
 20
-81.2343724188
 10
280.697791406
 20
-82.1821267097
 10
279.5921628144
 20
-83.0325791537
 10
278.4046338945
 20
-83.7813960401
 10
277.1412560216
 20
-84.4247615697
 10
275.8084670797
 20
-84.9593972993
 10
274.4130586558
 20
-85.3825788476
 10
272.9621414312
 20
-85.6921497785
 10
271.4631089476
 20
-85.8865325896
 10
269.923599931
 20
-85.9647367506
 10
268.3514593663
 20
-85.926363751
 10
266.7546985216
 20
-85.7716091307
 10
265.1414541241
 20
-85.501261484
 10
263.5199468974
 20
-85.1166984403
 10
261.8984396708
 20
-84.619879645
 10
260.2851952733
 20
-84.0133367725
 10
258.6884344285
 20
-83.3001606264
 10
257.1162938639
 20
-82.4839853889
 10
255.5767848472
 20
-81.5689701019
 10
254.0777523637
 20
-80.5597774735
 10
252.6268351391
 20
-79.4615501181
 10
251.2314267151
 20
-78.2798843504
 10
249.8986377732
 20
-77.0208016685
 10
248.6352599003
 20
-75.690718069
 10
247.4477309805
 20
-74.2964113531
 10
246.3421023889
 20
-72.8449865882
 10
245.3240081554
 20
-71.3438399022
 10
244.3986362549
 20
-69.8006207946
 10
243.5707021703
 20
-68.2231931561
 10
242.8444248642
 20
-66.6195951964
 10
242.223505279
 20
-64.9979984832
 10
241.7111074788
 20
-63.3666663016
 10
241.3098425252
 20
-61.7339115465
 10
241.0217551725
 20
-60.1080543618
 10
240.8483134478
 20
-58.497379743
 10
240.7904011703
 20
-56.9100953189
  0
LWPOLYLINE
  5
C7
330
1F
100
AcDbEntity
  8
0
  6
Continuous
 62
     7
370
    25
100
AcDbPolyline
 90
       51
 70
   128
 43
0.0
 10
282.5870791258
 20
-0.460317967
 10
283.3758880891
 20
0.2652672072
 10
284.5765238612
 20
1.2202588622
 10
285.8593957704
 20
2.0757131579
 10
287.2192322208
 20
2.8281148491
 10
288.6504453526
 20
3.4743721559
 10
290.1471540042
 20
4.0118294683
 10
291.7032078787
 20
4.438278259
 10
293.3122128169
 20
4.7519661584
 10
294.9675570725
 20
4.9516041557
 10
296.6624384807
 20
5.0363718955
 10
298.3898924103
 20
5.005921049
 10
300.1428203826
 20
4.8603767453
 10
301.9140192406
 20
4.600337057
 10
303.6962107482
 20
4.2268705432
 10
305.4820714983
 20
3.7415118577
 10
307.2642630059
 20
3.1462554435
 10
309.0354618639
 20
2.4435473369
 10
310.7883898362
 20
1.6362751163
 10
312.5158437659
 20
0.7277560364
 10
314.2107251741
 20
-0.2782766031
 10
315.8660694296
 20
-1.3776887982
 10
317.4750743678
 20
-2.5659628284
 10
319.0311282423
 20
-3.8382158209
 10
320.5278368939
 20
-5.1892198152
 10
321.9590500258
 20
-6.613423246
 10
323.3188864761
 20
-8.1049737561
 10
324.6017583853
 20
-9.6577422444
 10
325.8023941575
 20
-11.2653480521
 10
326.9158601227
 20
-12.9211851821
 10
327.9375808104
 20
-14.6184494446
 10
328.8633577513
 20
-16.3501664165
 10
329.6893867292
 20
-18.1092201015
 10
330.412273414
 20
-19.8883821705
 10
331.0290473091
 20
-21.680341665
 10
331.5371739584
 20
-23.4777350391
 10
331.9345653604
 20
-25.2731764179
 10
332.2195885487
 20
-27.0592879476
 10
332.3910723018
 20
-28.8287301128
 10
332.4483119561
 20
-30.5742318961
 10
332.3910723018
 20
-32.2886206563
 10
332.2195885487
 20
-33.9648516022
 10
331.9345653604
 20
-35.5960367414
 10
331.5371739584
 20
-37.1754731841
 10
331.0290473091
 20
-38.6966706874
 10
330.412273414
 20
-40.1533783242
 10
329.6893867292
 20
-41.5396101706
 10
328.8633577513
 20
-42.8496699024
 10
327.9375808104
 20
-44.0781742033
 10
326.9158601227
 20
-45.2200748855
 10
326.5912031208
 20
-45.5450944601
  0
LWPOLYLINE
  5
C8
330
1F
100
AcDbEntity
  8
0
  6
Continuous
 62
     7
370
    25
100
AcDbPolyline
 90
       74
 70
   128
 43
0.0
 10
278.9095181335
 20
-0.3887772892
 10
279.0118200255
 20
0.1831580811
 10
279.4101899966
 20
1.9625503915
 10
279.9201075839
 20
3.6862474222
 10
280.5398788924
 20
5.3485232249
 10
281.2674451042
 20
6.9438558866
 10
282.1003893175
 20
8.4669458726
 10
283.0359445754
 20
9.9127336312
 10
284.0710030573
 20
11.2764164008
 10
285.2021264031
 20
12.5534641644
 10
286.4255571348
 20
13.7396346977
 10
287.7372311386
 20
14.8309876616
 10
289.1327911653
 20
15.8238976912
 10
290.6076013049
 20
16.7150664393
 10
292.1567623863
 20
17.5015335329
 10
293.7751282523
 20
18.1806864075
 10
295.4573228542
 20
18.7502689854
 10
297.1977581107
 20
19.2083891706
 10
298.9906524709
 20
19.553525134
 10
300.8300501201
 20
19.7845303685
 10
302.7098407642
 20
19.9006374981
 10
304.6237799278
 20
19.9014608265
 10
306.5655096975
 20
19.7869976187
 10
308.5285798422
 20
19.5576281099
 10
310.5064692403
 20
19.2141142427
 10
312.4926075421
 20
18.7575971355
 10
314.480396996
 20
18.1895932922
 10
316.4632343653
 20
17.5119895646
 10
318.4345328636
 20
16.727036884
 10
320.3877440356
 20
15.8373427842
 10
322.3163795102
 20
14.8458627397
 10
324.2140325543
 20
13.7558903475
 10
326.0743993554
 20
12.5710463861
 10
327.8912999619
 20
11.2952667881
 10
329.6586988129
 20
9.932789565
 10
331.370724787
 20
8.4881407292
 10
333.0216907062
 20
6.9661192587
 10
334.6061122276
 20
5.3717811558
 10
336.1187260625
 20
3.7104226515
 10
337.5545074596
 20
1.9875626115
 10
338.9086868976
 20
0.2089242036
 10
340.1767659286
 20
-1.6195841142
 10
341.3545321216
 20
-3.4918882212
 10
342.4380730557
 20
-5.4017685114
 10
343.4237893169
 20
-7.3428805546
 10
344.3084064548
 20
-9.3087761718
 10
345.0889858605
 20
-11.2929248554
 10
345.7629345275
 20
-13.2887354631
 10
346.3280136661
 20
-15.2895781127
 10
346.7823461404
 20
-17.2888062061
 10
347.1244227034
 20
-19.2797785088
 10
347.3531070113
 20
-21.2558812109
 10
347.4676393978
 20
-23.2105498979
 10
347.4676393978
 20
-25.1372913571
 10
347.3531070113
 20
-27.0297051471
 10
347.1244227034
 20
-28.8815048596
 10
346.7823461404
 20
-30.6865390022
 10
346.3280136661
 20
-32.438811433
 10
345.7629345275
 20
-34.1325012792
 10
345.0889858605
 20
-35.7619822734
 10
344.3084064548
 20
-37.3218414437
 10
343.4237893169
 20
-38.8068970948
 10
342.4380730557
 20
-40.2122160211
 10
341.3545321216
 20
-41.5331298945
 10
340.1767659286
 20
-42.765250772
 10
338.9086868976
 20
-43.9044856718
 10
337.5545074596
 20
-44.9470501703
 10
336.1187260625
 20
-45.889480973
 10
334.6061122276
 20
-46.7286474195
 10
333.0216907062
 20
-47.4617618834
 10
331.370724787
 20
-48.086389032
 10
329.6586988129
 20
-48.6004539169
 10
327.8912999619
 20
-49.0022488662
 10
326.5735179033
 20
-49.2233087216
  0
LWPOLYLINE
  5
C9
330
1F
100
AcDbEntity
  8
0
  6
Continuous
 62
     7
370
    25
100
AcDbPolyline
 90
       64
 70
   128
 43
0.0
 10
283.9010074779
 20
28.0707820224
 10
285.1331769218
 20
29.2065018068
 10
286.6430272935
 20
30.4351021615
 10
288.2359363241
 20
31.5655349435
 10
289.9078801871
 20
32.5949445816
 10
291.6546354071
 20
33.5207306977
 10
293.4717895289
 20
34.3405546757
 10
295.3547522635
 20
35.052345569
 10
297.2987670836
 20
35.6543053322
 10
299.298923239
 20
36.1449133625
 10
301.3501681617
 20
36.5229303416
 10
303.447320229
 20
36.7874013657
 10
305.5850818527
 20
36.9376583581
 10
307.7580528616
 20
36.9733217566
 10
309.9607441421
 20
36.8943014723
 10
312.1875915051
 20
36.7007971173
 10
314.4329697407
 20
36.3932975004
 10
316.6912068286
 20
35.9725793924
 10
318.9565982661
 20
35.4397055637
 10
321.2234214777
 20
34.7960220999
 10
323.4859502713
 20
34.0431550011
 10
325.7384693027
 20
33.1830060752
 10
327.9752885135
 20
32.2177481328
 10
330.1907575041
 20
31.1498194994
 10
332.3792798076
 20
29.9819178553
 10
334.5353270267
 20
28.7169934214
 10
336.653452799
 20
27.3582415068
 10
338.7283065551
 20
25.9090944365
 10
340.7546470342
 20
24.3732128819
 10
342.7273555244
 20
22.7544766132
 10
344.6414487929
 20
21.0569746985
 10
346.492091674
 20
19.284995175
 10
348.274609283
 20
17.4430142169
 10
349.984498826
 20
15.5356848279
 10
351.6174409734
 20
13.5678250875
 10
353.1693107717
 20
11.5444059802
 10
354.636188063
 20
9.4705388383
 10
356.0143673881
 20
7.3514624303
 10
357.3003673464
 20
5.1925297269
 10
358.4909393903
 20
2.9991943797
 10
359.5830760315
 20
0.7769969439
 10
360.5740184382
 20
-1.4684491167
 10
361.4612634037
 20
-3.7314716105
 10
362.2425696704
 20
-6.0063539464
 10
362.9159635906
 20
-8.2873495741
 10
363.4797441131
 20
-10.5686965007
 10
363.9324870792
 20
-12.8446318459
 10
364.2730488209
 20
-15.1094063995
 10
364.5005690497
 20
-17.3572991443
 10
364.6144730298
 20
-19.5826317083
 10
364.6144730298
 20
-21.7797827082
 10
364.5005690497
 20
-23.94320195
 10
364.2730488209
 20
-26.0674244488
 10
363.9324870792
 20
-28.1470842342
 10
363.4797441131
 20
-30.1769279053
 10
362.9159635906
 20
-32.1518279006
 10
362.2425696704
 20
-34.0667954514
 10
361.4612634037
 20
-35.9169931835
 10
360.5740184382
 20
-37.6977473368
 10
359.5830760315
 20
-39.4045595718
 10
358.4909393903
 20
-41.0331183327
 10
357.3003673464
 20
-42.5793097386
 10
356.0143673881
 20
-44.0392279759
 10
355.1457796602
 20
-44.923618014
  0
LWPOLYLINE
  5
CA
330
1F
100
AcDbEntity
  8
0
  6
Continuous
 62
     7
370
    25
100
AcDbPolyline
 90
       95
 70
   128
 43
0.0
 10
267.8843339185
 20
-2.5448834622
 10
267.9413039002
 20
-0.3639095664
 10
268.1120699344
 20
1.7805885593
 10
268.3962006512
 20
3.8831937267
 10
268.7929783118
 20
5.9385945726
 10
269.3014006213
 20
7.941598976
 10
269.9201832608
 20
9.8871471741
 10
270.6477631318
 20
11.7703245431
 10
271.4823023043
 20
13.5863740137
 10
272.4216926599
 20
15.3307080873
 10
273.4635612172
 20
16.9989204245
 10
274.6052761255
 20
18.5867969763
 10
275.8439533141
 20
20.0903266287
 10
277.1764637769
 20
21.5057113353
 10
278.5994414768
 20
22.8293757115
 10
280.1092918485
 20
24.0579760662
 10
281.7022008791
 20
25.1884088483
 10
283.374144742
 20
26.2178184864
 10
285.1208999621
 20
27.1436046025
 10
286.9380540839
 20
27.9634285804
 10
288.8210168185
 20
28.6752194738
 10
290.7650316385
 20
29.2771792369
 10
292.765187794
 20
29.7677872673
 10
294.8164327167
 20
30.1458042463
 10
296.9135847839
 20
30.4102752704
 10
299.0513464077
 20
30.5605322628
 10
301.2243174165
 20
30.5961956613
 10
303.4270086971
 20
30.517175377
 10
305.65385606
 20
30.323671022
 10
307.8992342956
 20
30.0161714052
 10
310.1574713836
 20
29.5954532972
 10
312.4228628211
 20
29.0625794685
 10
314.6896860327
 20
28.4188960046
 10
316.9522148263
 20
27.6660289059
 10
319.2047338577
 20
26.8058799799
 10
321.4415530685
 20
25.8406220375
 10
323.6570220591
 20
24.7726934041
 10
325.8455443626
 20
23.60479176
 10
328.0015915817
 20
22.3398673262
 10
330.119717354
 20
20.9811154115
 10
332.1945711101
 20
19.5319683412
 10
334.2209115892
 20
17.9960867867
 10
336.1936200794
 20
16.3773505179
 10
338.1077133479
 20
14.6798486032
 10
339.9583562289
 20
12.9078690798
 10
341.740873838
 20
11.0658881216
 10
343.450763381
 20
9.1585587326
 10
345.0837055284
 20
7.1906989922
 10
346.6355753266
 20
5.1672798849
 10
348.102452618
 20
3.0934127431
 10
349.4806319431
 20
0.974336335
 10
350.7666319014
 20
-1.1845963683
 10
351.9572039453
 20
-3.3779317156
 10
353.0493405865
 20
-5.6001291513
 10
354.0402829932
 20
-7.8455752119
 10
354.9275279587
 20
-10.1085977058
 10
355.7088342253
 20
-12.3834800417
 10
356.3822281456
 20
-14.6644756694
 10
356.9460086681
 20
-16.945822596
 10
357.3987516342
 20
-19.2217579412
 10
357.7393133759
 20
-21.4865324948
 10
357.9668336047
 20
-23.7344252396
 10
358.0807375848
 20
-25.9597578036
 10
358.0807375848
 20
-28.1569088035
 10
357.9668336047
 20
-30.3203280452
 10
357.7393133759
 20
-32.444550544
 10
357.3987516342
 20
-34.5242103295
 10
356.9460086681
 20
-36.5540540005
 10
356.3822281456
 20
-38.5289539958
 10
355.7088342253
 20
-40.4439215467
 10
354.9275279587
 20
-42.2941192788
 10
354.0402829932
 20
-44.0748734321
 10
353.0493405865
 20
-45.7816856671
 10
351.9572039453
 20
-47.4102444279
 10
350.7666319014
 20
-48.9564358339
 10
349.4806319431
 20
-50.4163540712
 10
348.102452618
 20
-51.7863112598
 10
346.6355753266
 20
-53.0628467688
 10
345.0837055284
 20
-54.2427359588
 10
343.450763381
 20
-55.3229983273
 10
341.740873838
 20
-56.3009050378
 10
339.9583562289
 20
-57.1739858131
 10
338.1077133479
 20
-57.9400351754
 10
336.1936200794
 20
-58.5971180174
 10
334.2209115892
 20
-59.143574491
 10
332.1945711101
 20
-59.5780241995
 10
330.119717354
 20
-59.8993696855
 10
328.0015915817
 20
-60.1067992022
 10
325.8455443626
 20
-60.1997887647
 10
323.6570220591
 20
-60.1781034734
 10
321.4415530685
 20
-60.041798107
 10
319.2047338577
 20
-59.7912169849
 10
316.9522148263
 20
-59.4269930967
 10
314.6896860327
 20
-58.9500465035
 10
313.2318209143
 20
-58.5842610444
  0
ARC
  5
CB
330
1F
100
AcDbEntity
  8
0
  6
Continuous
 62
     7
370
    25
100
AcDbCircle
 10
314.6936200955
 20
-2.3643284109
 30
0.0
 40
46.8096343986118
100
AcDbArc
 50
180.2210029664
 51
193.7615511599
  0
ENDSEC
  0
SECTION
  2
OBJECTS
  0
DICTIONARY
  5
C
330
0
100
AcDbDictionary
281
     1
  3
ACAD_GROUP
350
D
  3
ACAD_LAYOUT
350
1A
  3
ACAD_MLINESTYLE
350
17
  3
ACAD_PLOTSETTINGS
350
19
  3
ACAD_PLOTSTYLENAME
350
E
  3
ACAD_SCALELIST
350
47
  0
DICTIONARY
  5
D
102
{ACAD_REACTORS
330
C
102
}
330
C
100
AcDbDictionary
281
     1
  0
DICTIONARY
  5
1A
102
{ACAD_REACTORS
330
C
102
}
330
C
100
AcDbDictionary
281
     1
  3
Layout1
350
1E
  3
Layout2
350
26
  3
Model
350
22
  0
DICTIONARY
  5
17
102
{ACAD_REACTORS
330
C
102
}
330
C
100
AcDbDictionary
281
     1
  3
Standard
350
18
  0
DICTIONARY
  5
19
102
{ACAD_REACTORS
330
C
102
}
330
C
100
AcDbDictionary
281
     1
  0
ACDBDICTIONARYWDFLT
  5
E
102
{ACAD_REACTORS
330
C
102
}
330
C
100
AcDbDictionary
281
     1
  3
Normal
350
F
100
AcDbDictionaryWithDefault
340
F
  0
DICTIONARY
  5
47
102
{ACAD_REACTORS
330
C
102
}
330
C
100
AcDbDictionary
281
     1
  3
A0
350
48
  3
A1
350
49
  3
A2
350
4A
  3
A3
350
4B
  3
A4
350
4C
  3
A5
350
4D
  3
A6
350
4E
  3
A7
350
4F
  3
A8
350
50
  3
A9
350
51
  3
B0
350
52
  3
B1
350
53
  3
B2
350
54
  3
B3
350
55
  3
B4
350
56
  3
B5
350
57
  3
B6
350
58
  3
B7
350
59
  3
B8
350
5A
  3
B9
350
5B
  3
C0
350
5C
  3
C1
350
5D
  3
C2
350
5E
  3
C3
350
5F
  3
C4
350
60
  3
C5
350
61
  3
C6
350
62
  3
C7
350
63
  3
C8
350
64
  3
C9
350
65
  3
D0
350
66
  3
D1
350
67
  3
D2
350
68
  0
LAYOUT
  5
1E
102
{ACAD_REACTORS
330
1A
102
}
330
1A
100
AcDbPlotSettings
  1

  2
none_device
  4

  6

 40
0.0
 41
0.0
 42
0.0
 43
0.0
 44
0.0
 45
0.0
 46
0.0
 47
0.0
 48
0.0
 49
0.0
140
0.0
141
0.0
142
1.0
143
1.0
 70
   688
 72
     1
 73
     0
 74
     5
  7

 75
    16
147
1.0
148
0.0
149
0.0
100
AcDbLayout
  1
Layout1
 70
     1
 71
     1
 10
0.0
 20
0.0
 11
420.0
 21
297.0
 12
0.0
 22
0.0
 32
0.0
 14
1.0000000000E+20
 24
1.0000000000E+20
 34
1.0000000000E+20
 15
-1.0000000000E+20
 25
-1.0000000000E+20
 35
-1.0000000000E+20
146
0.0
 13
0.0
 23
0.0
 33
0.0
 16
1.0
 26
0.0
 36
0.0
 17
0.0
 27
1.0
 37
0.0
 76
     0
330
1B
  0
LAYOUT
  5
26
102
{ACAD_REACTORS
330
1A
102
}
330
1A
100
AcDbPlotSettings
  1

  2
none_device
  4

  6

 40
0.0
 41
0.0
 42
0.0
 43
0.0
 44
0.0
 45
0.0
 46
0.0
 47
0.0
 48
0.0
 49
0.0
140
0.0
141
0.0
142
1.0
143
1.0
 70
   688
 72
     1
 73
     0
 74
     5
  7

 75
    16
147
1.0
148
0.0
149
0.0
100
AcDbLayout
  1
Layout2
 70
     1
 71
     2
 10
0.0
 20
0.0
 11
0.0
 21
0.0
 12
0.0
 22
0.0
 32
0.0
 14
0.0
 24
0.0
 34
0.0
 15
0.0
 25
0.0
 35
0.0
146
0.0
 13
0.0
 23
0.0
 33
0.0
 16
1.0
 26
0.0
 36
0.0
 17
0.0
 27
1.0
 37
0.0
 76
     0
330
23
  0
LAYOUT
  5
22
102
{ACAD_REACTORS
330
1A
102
}
330
1A
100
AcDbPlotSettings
  1

  2
none_device
  4
Letter_(8.50_x_11.00_Inches)
  6

 40
6.35
 41
6.35
 42
6.35000508
 43
6.35000508
 44
215.9
 45
279.4
 46
0.0
 47
0.0
 48
0.0
 49
0.0
140
0.0
141
0.0
142
1.0
143
1.0
 70
  1712
 72
     1
 73
     0
 74
     0
  7

 75
     0
147
1.0
148
0.0
149
0.0
100
AcDbLayout
  1
Model
 70
     1
 71
     0
 10
0.0
 20
0.0
 11
279.4
 21
215.9
 12
0.0
 22
0.0
 32
0.0
 14
0.0
 24
0.0
 34
0.0
 15
279.4
 25
215.9
 35
0.0
146
0.0
 13
0.0
 23
0.0
 33
0.0
 16
1.0
 26
0.0
 36
0.0
 17
0.0
 27
1.0
 37
0.0
 76
     0
330
1F
331
29
  0
MLINESTYLE
  5
18
102
{ACAD_REACTORS
330
17
102
}
330
17
100
AcDbMlineStyle
  2
Standard
 70
     0
  3

 62
   256
 51
90.0
 52
90.0
 71
     2
 49
0.5
 62
   256
  6
BYLAYER
 49
-0.5
 62
   256
  6
BYLAYER
  0
ACDBPLACEHOLDER
  5
F
102
{ACAD_REACTORS
330
E
102
}
330
E
  0
SCALE
  5
48
102
{ACAD_REACTORS
330
47
102
}
330
47
100
AcDbScale
 70
     0
300
1:1
140
1.0
141
1.0
290
     1
  0
SCALE
  5
49
102
{ACAD_REACTORS
330
47
102
}
330
47
100
AcDbScale
 70
     0
300
1:2
140
1.0
141
2.0
290
     0
  0
SCALE
  5
4A
102
{ACAD_REACTORS
330
47
102
}
330
47
100
AcDbScale
 70
     0
300
1:4
140
1.0
141
4.0
290
     0
  0
SCALE
  5
4B
102
{ACAD_REACTORS
330
47
102
}
330
47
100
AcDbScale
 70
     0
300
1:5
140
1.0
141
5.0
290
     0
  0
SCALE
  5
4C
102
{ACAD_REACTORS
330
47
102
}
330
47
100
AcDbScale
 70
     0
300
1:8
140
1.0
141
8.0
290
     0
  0
SCALE
  5
4D
102
{ACAD_REACTORS
330
47
102
}
330
47
100
AcDbScale
 70
     0
300
1:10
140
1.0
141
10.0
290
     0
  0
SCALE
  5
4E
102
{ACAD_REACTORS
330
47
102
}
330
47
100
AcDbScale
 70
     0
300
1:16
140
1.0
141
16.0
290
     0
  0
SCALE
  5
4F
102
{ACAD_REACTORS
330
47
102
}
330
47
100
AcDbScale
 70
     0
300
1:20
140
1.0
141
20.0
290
     0
  0
SCALE
  5
50
102
{ACAD_REACTORS
330
47
102
}
330
47
100
AcDbScale
 70
     0
300
1:30
140
1.0
141
30.0
290
     0
  0
SCALE
  5
51
102
{ACAD_REACTORS
330
47
102
}
330
47
100
AcDbScale
 70
     0
300
1:40
140
1.0
141
40.0
290
     0
  0
SCALE
  5
52
102
{ACAD_REACTORS
330
47
102
}
330
47
100
AcDbScale
 70
     0
300
1:50
140
1.0
141
50.0
290
     0
  0
SCALE
  5
53
102
{ACAD_REACTORS
330
47
102
}
330
47
100
AcDbScale
 70
     0
300
1:100
140
1.0
141
100.0
290
     0
  0
SCALE
  5
54
102
{ACAD_REACTORS
330
47
102
}
330
47
100
AcDbScale
 70
     0
300
2:1
140
2.0
141
1.0
290
     0
  0
SCALE
  5
55
102
{ACAD_REACTORS
330
47
102
}
330
47
100
AcDbScale
 70
     0
300
4:1
140
4.0
141
1.0
290
     0
  0
SCALE
  5
56
102
{ACAD_REACTORS
330
47
102
}
330
47
100
AcDbScale
 70
     0
300
8:1
140
8.0
141
1.0
290
     0
  0
SCALE
  5
57
102
{ACAD_REACTORS
330
47
102
}
330
47
100
AcDbScale
 70
     0
300
10:1
140
10.0
141
1.0
290
     0
  0
SCALE
  5
58
102
{ACAD_REACTORS
330
47
102
}
330
47
100
AcDbScale
 70
     0
300
100:1
140
100.0
141
1.0
290
     0
  0
SCALE
  5
59
102
{ACAD_REACTORS
330
47
102
}
330
47
100
AcDbScale
 70
     0
300
1/128" = 1'-0"
140
0.0078125
141
12.0
290
     0
  0
SCALE
  5
5A
102
{ACAD_REACTORS
330
47
102
}
330
47
100
AcDbScale
 70
     0
300
1/64" = 1'-0"
140
0.015625
141
12.0
290
     0
  0
SCALE
  5
5B
102
{ACAD_REACTORS
330
47
102
}
330
47
100
AcDbScale
 70
     0
300
1/32" = 1'-0"
140
0.03125
141
12.0
290
     0
  0
SCALE
  5
5C
102
{ACAD_REACTORS
330
47
102
}
330
47
100
AcDbScale
 70
     0
300
1/16" = 1'-0"
140
0.0625
141
12.0
290
     0
  0
SCALE
  5
5D
102
{ACAD_REACTORS
330
47
102
}
330
47
100
AcDbScale
 70
     0
300
3/32" = 1'-0"
140
0.09375
141
12.0
290
     0
  0
SCALE
  5
5E
102
{ACAD_REACTORS
330
47
102
}
330
47
100
AcDbScale
 70
     0
300
1/8" = 1'-0"
140
0.125
141
12.0
290
     0
  0
SCALE
  5
5F
102
{ACAD_REACTORS
330
47
102
}
330
47
100
AcDbScale
 70
     0
300
3/16" = 1'-0"
140
0.1875
141
12.0
290
     0
  0
SCALE
  5
60
102
{ACAD_REACTORS
330
47
102
}
330
47
100
AcDbScale
 70
     0
300
1/4" = 1'-0"
140
0.25
141
12.0
290
     0
  0
SCALE
  5
61
102
{ACAD_REACTORS
330
47
102
}
330
47
100
AcDbScale
 70
     0
300
3/8" = 1'-0"
140
0.375
141
12.0
290
     0
  0
SCALE
  5
62
102
{ACAD_REACTORS
330
47
102
}
330
47
100
AcDbScale
 70
     0
300
1/2" = 1'-0"
140
0.5
141
12.0
290
     0
  0
SCALE
  5
63
102
{ACAD_REACTORS
330
47
102
}
330
47
100
AcDbScale
 70
     0
300
3/4" = 1'-0"
140
0.75
141
12.0
290
     0
  0
SCALE
  5
64
102
{ACAD_REACTORS
330
47
102
}
330
47
100
AcDbScale
 70
     0
300
1" = 1'-0"
140
1.0
141
12.0
290
     0
  0
SCALE
  5
65
102
{ACAD_REACTORS
330
47
102
}
330
47
100
AcDbScale
 70
     0
300
1-1/2" = 1'-0"
140
1.5
141
12.0
290
     0
  0
SCALE
  5
66
102
{ACAD_REACTORS
330
47
102
}
330
47
100
AcDbScale
 70
     0
300
3" = 1'-0"
140
3.0
141
12.0
290
     0
  0
SCALE
  5
67
102
{ACAD_REACTORS
330
47
102
}
330
47
100
AcDbScale
 70
     0
300
6" = 1'-0"
140
6.0
141
12.0
290
     0
  0
SCALE
  5
68
102
{ACAD_REACTORS
330
47
102
}
330
47
100
AcDbScale
 70
     0
300
1'-0" = 1'-0"
140
12.0
141
12.0
290
     0
  0
ENDSEC
  0
EOF
